ISO-10303-21;
HEADER;
FILE_DESCRIPTION (( 'STEP AP203' ),
    '1' );
FILE_NAME ('Q-OZHWP-R2-20-1064-M.STEP',
    '2020-12-22T09:15:35',
    ( '' ),
    ( '' ),
    'SwSTEP 2.0',
    'SolidWorks 2020',
    '' );
FILE_SCHEMA (( 'CONFIG_CONTROL_DESIGN' ));
ENDSEC;

DATA;
#1 = ORIENTED_EDGE ( 'NONE', *, *, #302, .T. ) ;
#2 = CIRCLE ( 'NONE', #272, 12.69999999999999929 ) ;
#3 = VERTEX_POINT ( 'NONE', #137 ) ;
#4 = EDGE_CURVE ( 'NONE', #239, #111, #216, .T. ) ;
#5 = DIRECTION ( 'NONE',  ( -1.000000000000000000, -0.000000000000000000, -0.000000000000000000 ) ) ;
#6 = PERSON_AND_ORGANIZATION ( #184, #147 ) ;
#7 = ORIENTED_EDGE ( 'NONE', *, *, #227, .T. ) ;
#8 = VERTEX_POINT ( 'NONE', #189 ) ;
#9 = CARTESIAN_POINT ( 'NONE',  ( 0.000000000000000000, 0.000000000000000000, 0.000000000000000000 ) ) ;
#10 = VERTEX_POINT ( 'NONE', #55 ) ;
#11 = APPROVAL_PERSON_ORGANIZATION ( #130, #143, #317 ) ;
#12 = EDGE_LOOP ( 'NONE', ( #315, #256, #236, #213 ) ) ;
#13 = DIRECTION ( 'NONE',  ( 0.000000000000000000, 0.000000000000000000, -1.000000000000000000 ) ) ;
#14 = DIRECTION ( 'NONE',  ( -1.000000000000000000, -0.000000000000000000, -0.000000000000000000 ) ) ;
#15 = FACE_OUTER_BOUND ( 'NONE', #106, .T. ) ;
#16 = AXIS2_PLACEMENT_3D ( 'NONE', #41, #196, #294 ) ;
#17 = CC_DESIGN_DATE_AND_TIME_ASSIGNMENT ( #158, #288, ( #324 ) ) ;
#18 = DIRECTION ( 'NONE',  ( -1.000000000000000000, -0.000000000000000000, -0.000000000000000000 ) ) ;
#19 = CARTESIAN_POINT ( 'NONE',  ( -3.000000000000000444, 0.000000000000000000, 0.000000000000000000 ) ) ;
#20 = CARTESIAN_POINT ( 'NONE',  ( 2.999999999999999112, 0.000000000000000000, 0.000000000000000000 ) ) ;
#21 = LOCAL_TIME ( 17, 15, 35.00000000000000000, #280 ) ;
#22 = LOCAL_TIME ( 17, 15, 35.00000000000000000, #282 ) ;
#23 = ADVANCED_FACE ( 'NONE', ( #258 ), #33, .F. ) ;
#24 = DIRECTION ( 'NONE',  ( 0.000000000000000000, 0.000000000000000000, 1.000000000000000000 ) ) ;
#25 = CC_DESIGN_PERSON_AND_ORGANIZATION_ASSIGNMENT ( #6, #314, ( #224 ) ) ;
#26 = DIRECTION ( 'NONE',  ( -1.000000000000000000, -0.000000000000000000, -0.000000000000000000 ) ) ;
#27 = ORIENTED_EDGE ( 'NONE', *, *, #4, .T. ) ;
#28 = DATE_AND_TIME ( #188, #229 ) ;
#29 = EDGE_LOOP ( 'NONE', ( #208, #193, #262, #7 ) ) ;
#30 = AXIS2_PLACEMENT_3D ( 'NONE', #9, #253, #212 ) ;
#31 = CALENDAR_DATE ( 2020, 22, 12 ) ;
#32 = ADVANCED_FACE ( 'NONE', ( #289 ), #79, .F. ) ;
#33 = CYLINDRICAL_SURFACE ( 'NONE', #45, 10.00000000000000000 ) ;
#34 = MECHANICAL_CONTEXT ( 'NONE', #168, 'mechanical' ) ;
#35 = EDGE_LOOP ( 'NONE', ( #311, #160 ) ) ;
#36 = ORIENTED_EDGE ( 'NONE', *, *, #254, .T. ) ;
#37 = AXIS2_PLACEMENT_3D ( 'NONE', #286, #40, #38 ) ;
#38 = DIRECTION ( 'NONE',  ( 0.000000000000000000, 0.000000000000000000, 1.000000000000000000 ) ) ;
#39 = EDGE_CURVE ( 'NONE', #162, #100, #2, .T. ) ;
#40 = DIRECTION ( 'NONE',  ( -1.000000000000000000, -0.000000000000000000, -0.000000000000000000 ) ) ;
#41 = CARTESIAN_POINT ( 'NONE',  ( -1.614212418857619014, 0.000000000000000000, 0.000000000000000000 ) ) ;
#42 = AXIS2_PLACEMENT_3D ( 'NONE', #321, #222, #63 ) ;
#43 = LINE ( 'NONE', #328, #252 ) ;
#44 = DIRECTION ( 'NONE',  ( 0.000000000000000000, 0.000000000000000000, 1.000000000000000000 ) ) ;
#45 = AXIS2_PLACEMENT_3D ( 'NONE', #134, #5, #108 ) ;
#46 = EDGE_CURVE ( 'NONE', #151, #309, #113, .T. ) ;
#47 = DIRECTION ( 'NONE',  ( 0.000000000000000000, 0.000000000000000000, -1.000000000000000000 ) ) ;
#48 = DIRECTION ( 'NONE',  ( 0.000000000000000000, 0.000000000000000000, -1.000000000000000000 ) ) ;
#49 = EDGE_CURVE ( 'NONE', #100, #162, #105, .T. ) ;
#50 = CYLINDRICAL_SURFACE ( 'NONE', #125, 12.69999999999999929 ) ;
#51 = PERSON_AND_ORGANIZATION_ROLE ( 'design_owner' ) ;
#52 = PERSON_AND_ORGANIZATION ( #184, #147 ) ;
#53 = ORIENTED_EDGE ( 'NONE', *, *, #227, .F. ) ;
#54 = ADVANCED_FACE ( 'NONE', ( #15 ), #244, .F. ) ;
#55 = CARTESIAN_POINT ( 'NONE',  ( -3.000000000000000444, 1.224646799147353256E-15, -10.00000000000000000 ) ) ;
#56 = CIRCLE ( 'NONE', #169, 10.00000000000000000 ) ;
#57 = EDGE_LOOP ( 'NONE', ( #295, #104 ) ) ;
#58 = APPROVAL_STATUS ( 'not_yet_approved' ) ;
#59 = EDGE_LOOP ( 'NONE', ( #83, #112, #36, #185 ) ) ;
#60 = ORIENTED_EDGE ( 'NONE', *, *, #75, .T. ) ;
#61 = CIRCLE ( 'NONE', #163, 10.00000000000000000 ) ;
#62 = CC_DESIGN_APPROVAL ( #121, ( #324 ) ) ;
#63 = DIRECTION ( 'NONE',  ( 0.000000000000000000, 0.000000000000000000, 1.000000000000000000 ) ) ;
#64 = CARTESIAN_POINT ( 'NONE',  ( -3.000000000000000000, 1.555301434917138433E-15, -12.69999999999999929 ) ) ;
#65 = CARTESIAN_POINT ( 'NONE',  ( 2.500000000000000888, 1.224646799147353256E-15, -10.00000000000000000 ) ) ;
#66 = CARTESIAN_POINT ( 'NONE',  ( 2.500000000000000888, 0.000000000000000000, 0.000000000000000000 ) ) ;
#67 = CLOSED_SHELL ( 'NONE', ( #172, #279, #161, #103, #32, #23, #200, #261, #326, #54 ) ) ;
#68 = DIRECTION ( 'NONE',  ( 0.000000000000000000, 0.000000000000000000, 1.000000000000000000 ) ) ;
#69 = CARTESIAN_POINT ( 'NONE',  ( -3.000000000000000444, 0.000000000000000000, 0.000000000000000000 ) ) ;
#70 = CARTESIAN_POINT ( 'NONE',  ( 3.000000000000000000, 0.000000000000000000, 0.000000000000000000 ) ) ;
#71 = DIRECTION ( 'NONE',  ( 1.000000000000000000, 0.000000000000000000, 0.000000000000000000 ) ) ;
#72 = VECTOR ( 'NONE', #218, 1000.000000000000000 ) ;
#73 = PERSON_AND_ORGANIZATION_ROLE ( 'classification_officer' ) ;
#74 = ORIENTED_EDGE ( 'NONE', *, *, #49, .F. ) ;
#75 = EDGE_CURVE ( 'NONE', #3, #8, #194, .T. ) ;
#76 = PERSON_AND_ORGANIZATION ( #184, #147 ) ;
#77 = EDGE_LOOP ( 'NONE', ( #166, #60 ) ) ;
#78 = COORDINATED_UNIVERSAL_TIME_OFFSET ( 8, 0, .AHEAD. ) ;
#79 = CYLINDRICAL_SURFACE ( 'NONE', #37, 10.00000000000000000 ) ;
#80 = EDGE_CURVE ( 'NONE', #3, #187, #150, .T. ) ;
#81 = PERSON_AND_ORGANIZATION_ROLE ( 'creator' ) ;
#82 = CC_DESIGN_SECURITY_CLASSIFICATION ( #324, ( #320 ) ) ;
#83 = ORIENTED_EDGE ( 'NONE', *, *, #302, .F. ) ;
#84 = ORIENTED_EDGE ( 'NONE', *, *, #157, .F. ) ;
#85 = UNCERTAINTY_MEASURE_WITH_UNIT (LENGTH_MEASURE( 1.000000000000000082E-05 ), #250, 'distance_accuracy_value', 'NONE');
#86 = DIRECTION ( 'NONE',  ( -1.000000000000000000, -0.000000000000000000, -0.000000000000000000 ) ) ;
#87 = CIRCLE ( 'NONE', #298, 10.00000000000000000 ) ;
#88 = CC_DESIGN_APPROVAL ( #143, ( #224 ) ) ;
#89 = CARTESIAN_POINT ( 'NONE',  ( -2.500000000000000444, 1.224646799147353256E-15, -10.00000000000000000 ) ) ;
#90 = CARTESIAN_POINT ( 'NONE',  ( 2.500000000000000444, 10.00000000000000000, 0.000000000000000000 ) ) ;
#91 = DIRECTION ( 'NONE',  ( 0.000000000000000000, 0.000000000000000000, 1.000000000000000000 ) ) ;
#92 = MANIFOLD_SOLID_BREP ( 'Ðý×', #67 ) ;
#93 = AXIS2_PLACEMENT_3D ( 'NONE', #299, #217, #242 ) ;
#94 = DIRECTION ( 'NONE',  ( 0.000000000000000000, 0.000000000000000000, 1.000000000000000000 ) ) ;
#95 = LINE ( 'NONE', #271, #146 ) ;
#96 = CC_DESIGN_PERSON_AND_ORGANIZATION_ASSIGNMENT ( #52, #73, ( #324 ) ) ;
#97 = CIRCLE ( 'NONE', #140, 10.00000000000000000 ) ;
#98 = APPROVAL_PERSON_ORGANIZATION ( #102, #181, #210 ) ;
#99 = DIRECTION ( 'NONE',  ( -1.000000000000000000, -0.000000000000000000, -0.000000000000000000 ) ) ;
#100 = VERTEX_POINT ( 'NONE', #263 ) ;
#101 = DIRECTION ( 'NONE',  ( 0.000000000000000000, 0.000000000000000000, 1.000000000000000000 ) ) ;
#102 = PERSON_AND_ORGANIZATION ( #184, #147 ) ;
#103 = ADVANCED_FACE ( 'NONE', ( #142 ), #325, .F. ) ;
#104 = ORIENTED_EDGE ( 'NONE', *, *, #46, .F. ) ;
#105 = CIRCLE ( 'NONE', #42, 12.69999999999999929 ) ;
#106 = EDGE_LOOP ( 'NONE', ( #313, #191 ) ) ;
#107 = DATE_AND_TIME ( #276, #209 ) ;
#108 = DIRECTION ( 'NONE',  ( 0.000000000000000000, 0.000000000000000000, 1.000000000000000000 ) ) ;
#109 = EDGE_CURVE ( 'NONE', #239, #167, #61, .T. ) ;
#110 = PERSON_AND_ORGANIZATION_ROLE ( 'design_supplier' ) ;
#111 = VERTEX_POINT ( 'NONE', #265 ) ;
#112 = ORIENTED_EDGE ( 'NONE', *, *, #46, .T. ) ;
#113 = CIRCLE ( 'NONE', #93, 12.69999999999999929 ) ;
#114 = ORIENTED_EDGE ( 'NONE', *, *, #129, .T. ) ;
#115 = ORIENTED_EDGE ( 'NONE', *, *, #254, .F. ) ;
#116 = DIRECTION ( 'NONE',  ( 0.000000000000000000, 0.000000000000000000, 1.000000000000000000 ) ) ;
#117 = DIRECTION ( 'NONE',  ( -1.000000000000000000, -0.000000000000000000, -0.000000000000000000 ) ) ;
#118 = AXIS2_PLACEMENT_3D ( 'NONE', #70, #127, #178 ) ;
#119 = DIRECTION ( 'NONE',  ( -1.000000000000000000, 0.000000000000000000, -0.000000000000000000 ) ) ;
#120 = CYLINDRICAL_SURFACE ( 'NONE', #16, 12.69999999999999929 ) ;
#121 = APPROVAL ( #58, 'UNSPECIFIED' ) ;
#122 = FACE_OUTER_BOUND ( 'NONE', #132, .T. ) ;
#123 = ORIENTED_EDGE ( 'NONE', *, *, #238, .T. ) ;
#124 = LINE ( 'NONE', #331, #247 ) ;
#125 = AXIS2_PLACEMENT_3D ( 'NONE', #180, #199, #101 ) ;
#126 = CARTESIAN_POINT ( 'NONE',  ( 2.999999999999999112, 12.69999999999999929, 0.000000000000000000 ) ) ;
#127 = DIRECTION ( 'NONE',  ( -1.000000000000000000, -0.000000000000000000, -0.000000000000000000 ) ) ;
#128 = ADVANCED_BREP_SHAPE_REPRESENTATION ( 'Q-OZHWP-R2-20-1064-M', ( #92, #30 ), #323 ) ;
#129 = EDGE_CURVE ( 'NONE', #187, #165, #228, .T. ) ;
#130 = PERSON_AND_ORGANIZATION ( #184, #147 ) ;
#131 = DATE_AND_TIME ( #186, #22 ) ;
#132 = EDGE_LOOP ( 'NONE', ( #123, #1, #74, #115 ) ) ;
#133 = SHAPE_DEFINITION_REPRESENTATION ( #243, #128 ) ;
#134 = CARTESIAN_POINT ( 'NONE',  ( -1.614212418857619014, 0.000000000000000000, 0.000000000000000000 ) ) ;
#135 = CC_DESIGN_PERSON_AND_ORGANIZATION_ASSIGNMENT ( #136, #81, ( #320 ) ) ;
#136 = PERSON_AND_ORGANIZATION ( #184, #147 ) ;
#137 = CARTESIAN_POINT ( 'NONE',  ( 2.999999999999999112, 1.224646799147353256E-15, -10.00000000000000000 ) ) ;
#138 = PERSON_AND_ORGANIZATION ( #184, #147 ) ;
#139 = ORIENTED_EDGE ( 'NONE', *, *, #333, .T. ) ;
#140 = AXIS2_PLACEMENT_3D ( 'NONE', #19, #117, #192 ) ;
#141 = APPROVAL_PERSON_ORGANIZATION ( #138, #121, #164 ) ;
#142 = FACE_OUTER_BOUND ( 'NONE', #319, .T. ) ;
#143 = APPROVAL ( #310, 'UNSPECIFIED' ) ;
#144 = CARTESIAN_POINT ( 'NONE',  ( -3.000000000000000000, 0.000000000000000000, 0.000000000000000000 ) ) ;
#145 = DIRECTION ( 'NONE',  ( -1.000000000000000000, -0.000000000000000000, -0.000000000000000000 ) ) ;
#146 = VECTOR ( 'NONE', #273, 1000.000000000000000 ) ;
#147 = ORGANIZATION ( 'UNSPECIFIED', 'UNSPECIFIED', '' ) ;
#148 = CARTESIAN_POINT ( 'NONE',  ( 3.000000000000000000, 1.555301434917138433E-15, -12.69999999999999929 ) ) ;
#149 = EDGE_CURVE ( 'NONE', #111, #10, #97, .T. ) ;
#150 = LINE ( 'NONE', #171, #223 ) ;
#151 = VERTEX_POINT ( 'NONE', #148 ) ;
#152 = CARTESIAN_POINT ( 'NONE',  ( 3.000000000000000000, 0.000000000000000000, 12.69999999999999929 ) ) ;
#153 = AXIS2_PLACEMENT_3D ( 'NONE', #301, #154, #47 ) ;
#154 = DIRECTION ( 'NONE',  ( 1.000000000000000000, 0.000000000000000000, 0.000000000000000000 ) ) ;
#155 = PLANE ( 'NONE',  #207 ) ;
#156 = AXIS2_PLACEMENT_3D ( 'NONE', #275, #176, #24 ) ;
#157 = EDGE_CURVE ( 'NONE', #167, #10, #198, .T. ) ;
#158 = DATE_AND_TIME ( #31, #174 ) ;
#159 = COORDINATED_UNIVERSAL_TIME_OFFSET ( 8, 0, .AHEAD. ) ;
#160 = ORIENTED_EDGE ( 'NONE', *, *, #39, .T. ) ;
#161 = ADVANCED_FACE ( 'NONE', ( #322 ), #195, .F. ) ;
#162 = VERTEX_POINT ( 'NONE', #64 ) ;
#163 = AXIS2_PLACEMENT_3D ( 'NONE', #297, #197, #13 ) ;
#164 = APPROVAL_ROLE ( '' ) ;
#165 = VERTEX_POINT ( 'NONE', #267 ) ;
#166 = ORIENTED_EDGE ( 'NONE', *, *, #240, .T. ) ;
#167 = VERTEX_POINT ( 'NONE', #89 ) ;
#168 = APPLICATION_CONTEXT ( 'configuration controlled 3d designs of mechanical parts and assemblies' ) ;
#169 = AXIS2_PLACEMENT_3D ( 'NONE', #20, #26, #94 ) ;
#170 = DIRECTION ( 'NONE',  ( 0.000000000000000000, 0.000000000000000000, -1.000000000000000000 ) ) ;
#171 = CARTESIAN_POINT ( 'NONE',  ( -1.614212418857619014, 1.224646799147353256E-15, -10.00000000000000000 ) ) ;
#172 = ADVANCED_FACE ( 'NONE', ( #122 ), #120, .T. ) ;
#173 = DIRECTION ( 'NONE',  ( 1.000000000000000000, 0.000000000000000000, 0.000000000000000000 ) ) ;
#174 = LOCAL_TIME ( 17, 15, 35.00000000000000000, #159 ) ;
#175 = CARTESIAN_POINT ( 'NONE',  ( 2.999999999999999112, 0.000000000000000000, 0.000000000000000000 ) ) ;
#176 = DIRECTION ( 'NONE',  ( -1.000000000000000000, -0.000000000000000000, -0.000000000000000000 ) ) ;
#177 = EDGE_CURVE ( 'NONE', #8, #165, #43, .T. ) ;
#178 = DIRECTION ( 'NONE',  ( 0.000000000000000000, 0.000000000000000000, 1.000000000000000000 ) ) ;
#179 =( NAMED_UNIT ( * ) PLANE_ANGLE_UNIT ( ) SI_UNIT ( $, .RADIAN. ) );
#180 = CARTESIAN_POINT ( 'NONE',  ( -1.614212418857619014, 0.000000000000000000, 0.000000000000000000 ) ) ;
#181 = APPROVAL ( #308, 'UNSPECIFIED' ) ;
#182 = APPLICATION_CONTEXT ( 'configuration controlled 3d designs of mechanical parts and assemblies' ) ;
#183 = APPLICATION_PROTOCOL_DEFINITION ( 'international standard', 'config_control_design', 1994, #182 ) ;
#184 = PERSON ( 'UNSPECIFIED', 'UNSPECIFIED', 'UNSPECIFIED', ('UNSPECIFIED'), ('UNSPECIFIED'), ('UNSPECIFIED') ) ;
#185 = ORIENTED_EDGE ( 'NONE', *, *, #39, .F. ) ;
#186 = CALENDAR_DATE ( 2020, 22, 12 ) ;
#187 = VERTEX_POINT ( 'NONE', #65 ) ;
#188 = CALENDAR_DATE ( 2020, 22, 12 ) ;
#189 = CARTESIAN_POINT ( 'NONE',  ( 2.999999999999999112, 0.000000000000000000, 10.00000000000000000 ) ) ;
#190 = SECURITY_CLASSIFICATION_LEVEL ( 'unclassified' ) ;
#191 = ORIENTED_EDGE ( 'NONE', *, *, #333, .F. ) ;
#192 = DIRECTION ( 'NONE',  ( 0.000000000000000000, 0.000000000000000000, 1.000000000000000000 ) ) ;
#193 = ORIENTED_EDGE ( 'NONE', *, *, #240, .F. ) ;
#194 = CIRCLE ( 'NONE', #303, 10.00000000000000000 ) ;
#195 = CYLINDRICAL_SURFACE ( 'NONE', #264, 10.00000000000000000 ) ;
#196 = DIRECTION ( 'NONE',  ( -1.000000000000000000, -0.000000000000000000, -0.000000000000000000 ) ) ;
#197 = DIRECTION ( 'NONE',  ( 1.000000000000000000, 0.000000000000000000, 0.000000000000000000 ) ) ;
#198 = LINE ( 'NONE', #245, #72 ) ;
#199 = DIRECTION ( 'NONE',  ( -1.000000000000000000, -0.000000000000000000, -0.000000000000000000 ) ) ;
#200 = ADVANCED_FACE ( 'NONE', ( #221, #202 ), #249, .F. ) ;
#201 = DIRECTION ( 'NONE',  ( -0.000000000000000000, 0.000000000000000000, 1.000000000000000000 ) ) ;
#202 = FACE_OUTER_BOUND ( 'NONE', #35, .T. ) ;
#203 = CIRCLE ( 'NONE', #285, 10.00000000000000000 ) ;
#204 = DIRECTION ( 'NONE',  ( -1.000000000000000000, -0.000000000000000000, -0.000000000000000000 ) ) ;
#205 = CARTESIAN_POINT ( 'NONE',  ( -3.000000000000000000, 10.00000000000000000, 0.000000000000000000 ) ) ;
#206 = APPROVAL_DATE_TIME ( #107, #181 ) ;
#207 = AXIS2_PLACEMENT_3D ( 'NONE', #126, #226, #201 ) ;
#208 = ORIENTED_EDGE ( 'NONE', *, *, #80, .F. ) ;
#209 = LOCAL_TIME ( 17, 15, 35.00000000000000000, #78 ) ;
#210 = APPROVAL_ROLE ( '' ) ;
#211 = EDGE_LOOP ( 'NONE', ( #84, #139, #27, #260 ) ) ;
#212 = DIRECTION ( 'NONE',  ( 1.000000000000000000, 0.000000000000000000, 0.000000000000000000 ) ) ;
#213 = ORIENTED_EDGE ( 'NONE', *, *, #4, .F. ) ;
#214 = EDGE_LOOP ( 'NONE', ( #327, #281 ) ) ;
#215 = APPROVAL_DATE_TIME ( #131, #143 ) ;
#216 = LINE ( 'NONE', #234, #268 ) ;
#217 = DIRECTION ( 'NONE',  ( -1.000000000000000000, -0.000000000000000000, -0.000000000000000000 ) ) ;
#218 = DIRECTION ( 'NONE',  ( -1.000000000000000000, -0.000000000000000000, -0.000000000000000000 ) ) ;
#219 = EDGE_CURVE ( 'NONE', #10, #111, #87, .T. ) ;
#220 = DIRECTION ( 'NONE',  ( -0.000000000000000000, 0.000000000000000000, 1.000000000000000000 ) ) ;
#221 = FACE_BOUND ( 'NONE', #214, .T. ) ;
#222 = DIRECTION ( 'NONE',  ( -1.000000000000000000, -0.000000000000000000, -0.000000000000000000 ) ) ;
#223 = VECTOR ( 'NONE', #18, 1000.000000000000000 ) ;
#224 = PRODUCT_DEFINITION ( 'UNKNOWN', '', #320, #287 ) ;
#225 = DIRECTION ( 'NONE',  ( -1.000000000000000000, -0.000000000000000000, -0.000000000000000000 ) ) ;
#226 = DIRECTION ( 'NONE',  ( -1.000000000000000000, 0.000000000000000000, -0.000000000000000000 ) ) ;
#227 = EDGE_CURVE ( 'NONE', #165, #187, #203, .T. ) ;
#228 = CIRCLE ( 'NONE', #318, 10.00000000000000000 ) ;
#229 = LOCAL_TIME ( 17, 15, 35.00000000000000000, #255 ) ;
#230 = CALENDAR_DATE ( 2020, 22, 12 ) ;
#231 = ORIENTED_EDGE ( 'NONE', *, *, #129, .F. ) ;
#232 = APPROVAL_DATE_TIME ( #28, #121 ) ;
#233 = CC_DESIGN_PERSON_AND_ORGANIZATION_ASSIGNMENT ( #76, #110, ( #320 ) ) ;
#234 = CARTESIAN_POINT ( 'NONE',  ( -1.614212418857619014, 0.000000000000000000, 10.00000000000000000 ) ) ;
#235 = DATE_AND_TIME ( #230, #21 ) ;
#236 = ORIENTED_EDGE ( 'NONE', *, *, #219, .T. ) ;
#237 = ORIENTED_EDGE ( 'NONE', *, *, #75, .F. ) ;
#238 = EDGE_CURVE ( 'NONE', #309, #151, #307, .T. ) ;
#239 = VERTEX_POINT ( 'NONE', #305 ) ;
#240 = EDGE_CURVE ( 'NONE', #8, #3, #56, .T. ) ;
#241 = CARTESIAN_POINT ( 'NONE',  ( -2.500000000000000444, 10.00000000000000000, 0.000000000000000000 ) ) ;
#242 = DIRECTION ( 'NONE',  ( 0.000000000000000000, 0.000000000000000000, 1.000000000000000000 ) ) ;
#243 = PRODUCT_DEFINITION_SHAPE ( 'NONE', 'NONE',  #224 ) ;
#244 = PLANE ( 'NONE',  #277 ) ;
#245 = CARTESIAN_POINT ( 'NONE',  ( -1.614212418857619014, 1.224646799147353256E-15, -10.00000000000000000 ) ) ;
#246 = CARTESIAN_POINT ( 'NONE',  ( 2.500000000000000888, 0.000000000000000000, 0.000000000000000000 ) ) ;
#247 = VECTOR ( 'NONE', #225, 1000.000000000000000 ) ;
#248 = FACE_OUTER_BOUND ( 'NONE', #57, .T. ) ;
#249 = PLANE ( 'NONE',  #257 ) ;
#250 =( LENGTH_UNIT ( ) NAMED_UNIT ( * ) SI_UNIT ( .MILLI., .METRE. ) );
#251 = FACE_OUTER_BOUND ( 'NONE', #59, .T. ) ;
#252 = VECTOR ( 'NONE', #329, 1000.000000000000000 ) ;
#253 = DIRECTION ( 'NONE',  ( 0.000000000000000000, 0.000000000000000000, 1.000000000000000000 ) ) ;
#254 = EDGE_CURVE ( 'NONE', #309, #100, #124, .T. ) ;
#255 = COORDINATED_UNIVERSAL_TIME_OFFSET ( 8, 0, .AHEAD. ) ;
#256 = ORIENTED_EDGE ( 'NONE', *, *, #157, .T. ) ;
#257 = AXIS2_PLACEMENT_3D ( 'NONE', #205, #71, #48 ) ;
#258 = FACE_OUTER_BOUND ( 'NONE', #211, .T. ) ;
#259 = PERSON_AND_ORGANIZATION ( #184, #147 ) ;
#260 = ORIENTED_EDGE ( 'NONE', *, *, #149, .T. ) ;
#261 = ADVANCED_FACE ( 'NONE', ( #251 ), #50, .T. ) ;
#262 = ORIENTED_EDGE ( 'NONE', *, *, #177, .T. ) ;
#263 = CARTESIAN_POINT ( 'NONE',  ( -3.000000000000000000, 0.000000000000000000, 12.69999999999999929 ) ) ;
#264 = AXIS2_PLACEMENT_3D ( 'NONE', #293, #266, #269 ) ;
#265 = CARTESIAN_POINT ( 'NONE',  ( -3.000000000000000444, 0.000000000000000000, 10.00000000000000000 ) ) ;
#266 = DIRECTION ( 'NONE',  ( -1.000000000000000000, -0.000000000000000000, -0.000000000000000000 ) ) ;
#267 = CARTESIAN_POINT ( 'NONE',  ( 2.500000000000000888, 0.000000000000000000, 10.00000000000000000 ) ) ;
#268 = VECTOR ( 'NONE', #283, 1000.000000000000000 ) ;
#269 = DIRECTION ( 'NONE',  ( 0.000000000000000000, 0.000000000000000000, 1.000000000000000000 ) ) ;
#270 = ORIENTED_EDGE ( 'NONE', *, *, #177, .F. ) ;
#271 = CARTESIAN_POINT ( 'NONE',  ( -1.614212418857619014, 1.555301434917138433E-15, -12.69999999999999929 ) ) ;
#272 = AXIS2_PLACEMENT_3D ( 'NONE', #144, #145, #68 ) ;
#273 = DIRECTION ( 'NONE',  ( -1.000000000000000000, -0.000000000000000000, -0.000000000000000000 ) ) ;
#274 =( NAMED_UNIT ( * ) SI_UNIT ( $, .STERADIAN. ) SOLID_ANGLE_UNIT ( ) );
#275 = CARTESIAN_POINT ( 'NONE',  ( -1.614212418857619014, 0.000000000000000000, 0.000000000000000000 ) ) ;
#276 = CALENDAR_DATE ( 2020, 22, 12 ) ;
#277 = AXIS2_PLACEMENT_3D ( 'NONE', #241, #173, #170 ) ;
#278 = CC_DESIGN_APPROVAL ( #181, ( #320 ) ) ;
#279 = ADVANCED_FACE ( 'NONE', ( #332 ), #304, .F. ) ;
#280 = COORDINATED_UNIVERSAL_TIME_OFFSET ( 8, 0, .AHEAD. ) ;
#281 = ORIENTED_EDGE ( 'NONE', *, *, #219, .F. ) ;
#282 = COORDINATED_UNIVERSAL_TIME_OFFSET ( 8, 0, .AHEAD. ) ;
#283 = DIRECTION ( 'NONE',  ( -1.000000000000000000, -0.000000000000000000, -0.000000000000000000 ) ) ;
#284 = CC_DESIGN_PERSON_AND_ORGANIZATION_ASSIGNMENT ( #259, #51, ( #316 ) ) ;
#285 = AXIS2_PLACEMENT_3D ( 'NONE', #246, #204, #300 ) ;
#286 = CARTESIAN_POINT ( 'NONE',  ( -1.614212418857619014, 0.000000000000000000, 0.000000000000000000 ) ) ;
#287 = DESIGN_CONTEXT ( 'detailed design', #182, 'design' ) ;
#288 = DATE_TIME_ROLE ( 'classification_date' ) ;
#289 = FACE_OUTER_BOUND ( 'NONE', #29, .T. ) ;
#290 = ORIENTED_EDGE ( 'NONE', *, *, #80, .T. ) ;
#291 = CIRCLE ( 'NONE', #153, 10.00000000000000000 ) ;
#292 = EDGE_LOOP ( 'NONE', ( #237, #290, #114, #270 ) ) ;
#293 = CARTESIAN_POINT ( 'NONE',  ( -1.614212418857619014, 0.000000000000000000, 0.000000000000000000 ) ) ;
#294 = DIRECTION ( 'NONE',  ( 0.000000000000000000, 0.000000000000000000, 1.000000000000000000 ) ) ;
#295 = ORIENTED_EDGE ( 'NONE', *, *, #238, .F. ) ;
#296 = CC_DESIGN_DATE_AND_TIME_ASSIGNMENT ( #235, #335, ( #224 ) ) ;
#297 = CARTESIAN_POINT ( 'NONE',  ( -2.500000000000000444, 0.000000000000000000, 0.000000000000000000 ) ) ;
#298 = AXIS2_PLACEMENT_3D ( 'NONE', #69, #99, #44 ) ;
#299 = CARTESIAN_POINT ( 'NONE',  ( 3.000000000000000000, 0.000000000000000000, 0.000000000000000000 ) ) ;
#300 = DIRECTION ( 'NONE',  ( 0.000000000000000000, 0.000000000000000000, 1.000000000000000000 ) ) ;
#301 = CARTESIAN_POINT ( 'NONE',  ( -2.500000000000000444, 0.000000000000000000, 0.000000000000000000 ) ) ;
#302 = EDGE_CURVE ( 'NONE', #151, #162, #95, .T. ) ;
#303 = AXIS2_PLACEMENT_3D ( 'NONE', #175, #86, #91 ) ;
#304 = CYLINDRICAL_SURFACE ( 'NONE', #156, 10.00000000000000000 ) ;
#305 = CARTESIAN_POINT ( 'NONE',  ( -2.500000000000000444, 0.000000000000000000, 10.00000000000000000 ) ) ;
#306 = APPLICATION_PROTOCOL_DEFINITION ( 'international standard', 'config_control_design', 1994, #168 ) ;
#307 = CIRCLE ( 'NONE', #118, 12.69999999999999929 ) ;
#308 = APPROVAL_STATUS ( 'not_yet_approved' ) ;
#309 = VERTEX_POINT ( 'NONE', #152 ) ;
#310 = APPROVAL_STATUS ( 'not_yet_approved' ) ;
#311 = ORIENTED_EDGE ( 'NONE', *, *, #49, .T. ) ;
#312 = PRODUCT_RELATED_PRODUCT_CATEGORY ( 'detail', '', ( #316 ) ) ;
#313 = ORIENTED_EDGE ( 'NONE', *, *, #109, .F. ) ;
#314 = PERSON_AND_ORGANIZATION_ROLE ( 'creator' ) ;
#315 = ORIENTED_EDGE ( 'NONE', *, *, #109, .T. ) ;
#316 = PRODUCT ( 'Q-OZHWP-R2-20-1064-M', 'Q-OZHWP-R2-20-1064-M', '', ( #34 ) ) ;
#317 = APPROVAL_ROLE ( '' ) ;
#318 = AXIS2_PLACEMENT_3D ( 'NONE', #66, #14, #116 ) ;
#319 = EDGE_LOOP ( 'NONE', ( #53, #231 ) ) ;
#320 = PRODUCT_DEFINITION_FORMATION_WITH_SPECIFIED_SOURCE ( 'ANY', '', #316, .NOT_KNOWN. ) ;
#321 = CARTESIAN_POINT ( 'NONE',  ( -3.000000000000000000, 0.000000000000000000, 0.000000000000000000 ) ) ;
#322 = FACE_OUTER_BOUND ( 'NONE', #292, .T. ) ;
#323 =( GEOMETRIC_REPRESENTATION_CONTEXT ( 3 ) GLOBAL_UNCERTAINTY_ASSIGNED_CONTEXT ( ( #85 ) ) GLOBAL_UNIT_ASSIGNED_CONTEXT ( ( #250, #179, #274 ) ) REPRESENTATION_CONTEXT ( 'NONE', 'WORKASPACE' ) );
#324 = SECURITY_CLASSIFICATION ( '', '', #190 ) ;
#325 = PLANE ( 'NONE',  #330 ) ;
#326 = ADVANCED_FACE ( 'NONE', ( #248, #334 ), #155, .F. ) ;
#327 = ORIENTED_EDGE ( 'NONE', *, *, #149, .F. ) ;
#328 = CARTESIAN_POINT ( 'NONE',  ( -1.614212418857619014, 0.000000000000000000, 10.00000000000000000 ) ) ;
#329 = DIRECTION ( 'NONE',  ( -1.000000000000000000, -0.000000000000000000, -0.000000000000000000 ) ) ;
#330 = AXIS2_PLACEMENT_3D ( 'NONE', #90, #119, #220 ) ;
#331 = CARTESIAN_POINT ( 'NONE',  ( -1.614212418857619014, 0.000000000000000000, 12.69999999999999929 ) ) ;
#332 = FACE_OUTER_BOUND ( 'NONE', #12, .T. ) ;
#333 = EDGE_CURVE ( 'NONE', #167, #239, #291, .T. ) ;
#334 = FACE_BOUND ( 'NONE', #77, .T. ) ;
#335 = DATE_TIME_ROLE ( 'creation_date' ) ;
ENDSEC;
END-ISO-10303-21;
